Pallet On the Floor - Mississippi John Hurt

Here's an acoustic finger picking song.  Everything should be explained in the video and/or tablature.  You can listen to the original Mississippi John Hurt version here.  Let me know if you have any questions.





e|-------------------------------------------------3-------------------3----------|
B|-------3-1--------------3-------1-----------------------------1-----------------|
G|--2-------------------------------2-------0---------------------0---------------|
D|-------3---------3---------3---------3---------2---------2---------2-------2----|
A|------------------------------------------3-------------------3-----------------|
E|--1---------1---------1---------1-------------------3-------------------3-------|


e|-------------------------------------------------3-------------------3----------|
B|-------3-1--------------3-------1-----------------------------1-----------------|
G|--2-------------------------------2-------0---------------------0---------------|
D|-------3---------3---------3---------3---------2---------2---------2-------2----|
A|------------------------------------------3-------------------3-----------------|
E|--1---------1---------1---------1-------------------3-------------------3-------|


e|--0-----------0-------0---------------------------------------0------------------|
B|--0---------------------3-----------------1---------1-3-----------------3-1------|
G|--1----------------------------------------------2-------------------------------|
D|-------2---------2---------2---------2---------3---------3---------3---------3---|
A|---------------------------------------------------------------------------------|
E|--0---------0---------0---------0---------1---------1---------1---------1--------|


e|---------3-----------------0----0-------------------------------------------------|
B|--1---------------------3----3----3-------1----------------1----------------------|
G|------------------------------------------------------0---------------------------|
D|-------2---------2---------0---------0---------2---------2---------2--------------|
A|--3---------------------------------------3-------------------3-------------------|
E|------------3---------3---------3-------------------3-------------------3----2----|

                                                                                  repeat or end on C

1 comment

  • mark

    mark

    I just wanted to say thanks. This video has been a tremendous help to me.

    I just wanted to say thanks. This video has been a tremendous help to me.

Add comment

© 2013 Brandon Reeves. All Rights Reserved.