Open G Tuning - Chords

Here's some chordal ideas for an acoustic blues in open G tuning (D G D G B D).




G & G7 chords
D|-------0----3----5----9-----12----------------------------------------------|
B|-------0----3----6----8-----12----------------------------------------------|
G|-------0----4----7----10----12----------------------------------------------|
D|-------0----0----0----0-----0-----------------------------------------------|
G|-------0----0----0----0-----0-----------------------------------------------|
D|----------------------------------------------------------------------------|

C & C7 Chords
D|-------5----8----2----2-----------------------------------------------------|
B|-------5----5----1----1-----------------------------------------------------|
G|-------5----5----0----3-----------------------------------------------------|
D|-------5----5----2----2-----------------------------------------------------|
G|-------5----5----0----0-----------------------------------------------------|
D|----------------(2)--(2)----------------------------------------------------|

D & D7 Chords
D|-------------7----10---0----------------------------------------------------|
B|-------------7----7----1----------------------------------------------------|
G|-------------7----7----2----------------------------------------------------|
D|-------------7----7----0----------------------------------------------------|
G|-------------7----7----2----------------------------------------------------|
D|-----------------------0----------------------------------------------------|

Leave a comment

    Add comment

    © 2013 Brandon Reeves. All Rights Reserved.