Money solo - Pink Floyd

Here's a tune that one of my students and I were working on.  The solo uses the B minor pentatonic scale almost exclusively, with the exception of a couple of passing tones, and one bent tone on the 4th line.  You can listen to the tune here:  www.youtube.com/watch?v=cpbbuaIA3Ds.  The solo comes in around the 3 minute, 6 second mark.  Note:  this is only the first part of the solo.  I didn't do the whole thing.  It's pretty long.  There is a tablature key at the bottom of the page to help with what some of the symbols mean.  Hope you dig:


Pink Floyd-Money-Solo-3:06
e|--------------7-----------------------------10-------------12b(14)--------------|
B|--------------10b(12)r-7-10-------------/12----12~--12-12-----------12~---------|
G|---9b(11)-7~-----------------9b(11)-7~------------------------------------9b(11)|
D|--------------------------------------------------------------------------------|
A|--------------------------------------------------------------------------------|
E|--------------------------------------------------------------------------------|


e|---------------------7-------------10--12--12pb(14)------12b(14)r--10-12----|
B|------------------7-----10--10/12--------------------12---------------------|
G|-7-9------9b(11)------------------------------------------------------------|
D|------9~--------------------------------------------------------------------|
A|----------------------------------------------------------------------------|
E|----------------------------------------------------------------------------|


e|----------------------------------------------------------------------------|
B|-12--10---------------------------------------------------------------------|
G|---------(11)\9--7----------------------------------------------7-----------|
D|--------------------9--7--------------------------7--7(h)8(h)9-----9--9~----|
A|--------------------------(9)\7--5-----7(h)8(h)9----------------------------|
E|------------------------------------7---------------------------------------|


e|------------7---------------10-12-12pb(14)r(p)12----------14b(16)-14-12-10--|
B|---------7-----10-10-12-12------------------------12-12~--------------------|
G|-9b(11)---------------------------------------------------------------------|
D|----------------------------------------------------------------------------|
A|----------------------------------------------------------------------------|
E|----------------------------------------------------------------------------|


e|----------------------------------------------------------------------------------7--|
B|-12-10-----------10b(12)-10-8-7--------------7b-----9b-----/10-10-10-10~-------------|
G|--------9-9/11~------------------9-7-6-5-----7b-----9b-----/11-11-11-11~--9b(11)-----|
D|------------------------------------------9------9------9----------------------------|
A|-------------------------------------------------------------------------------------|
E|-------------------------------------------------------------------------------------|


Tablature Key:
b = bend
pb= prebend = bend first, then pick
r = release the bend
9b(11) = bend the 9th fret to match the tone at the 11th fret
/ = slide up to a note
\slide down to a note
~ = vibrato
(h) = hammer on
(p) = pull off



Leave a comment

    Add comment

    © 2013 Brandon Reeves. All Rights Reserved.